首页 | | 吉他入门 | 吉他下载 | 吉他教程 | 吉他唱片 | 吉他大师 | 吉他谱 | 吉他视频 | 吉他书讯 | 吉他博客 | 网站旧版 | 吉他论坛| 吉他商城 | 淘宝店
www.guitarwa.com-Love for girls,Look for girls...
网站地图 RSS订阅
高级搜索 收藏本站
热门搜索:
M 当前位置:主页>吉他谱>T>文章内容
明天你是否依然爱我-童安格- TXT文本
来源:吉他谱 作者:admin 发布时间:2007-08-23 进入论坛
-------------------------------------------------------------------------------

歌曲名:明天你是否依然爱我 

歌手/乐队:童安格

编配者(转载来源):网络

-------------------------------------------------------------------------------



  G        Am         G       Am         G        Am          D

e|--------------X---|--------------X---|-------------X---|--0-----|

B|---X-------X--|X--|-----X--------|X--|-----X-------|X--|-3|-X---|

G|---|-X-----|-X||X-|-----|-X----XX||X-|-----|-X-----||X-|-02-X---|

D|---|-|-X---|-||||-|---X-|-|---X|||||-|---X-|-|---X-|||-|-||-X-_-|

A|---|-|-|-X-|-||||-|---|-|-|-X-||||||-|---|-|-|-X-|-|||-|-||-|---|

E|-X-|-|-|-|-|-||||-|-X-|-|-|-|-||||||-|-X-|-|-|-|-|-|||-|-||-|---|

                                                     _3_



  D                           G

e|-0---2-3-5---2-0-|---5---32-3-------|---3-3-7-7-5---5-|-3-----------------|

B|---X-------3-----|------------------|-----------------|-----0----310------|

G|-----------------|------------------|-----------------|---0---0-----2-----|

D|-----------------|-0--------------0-|-----------------|---------0----020--|

A|---------0-------|-----0--------2---|-------------0---|-------------------|

E|-X---------------|------------3-----|-3---------------|-3-----------------|



G       Am      G         Em

午夜的收音机轻轻传来一首歌

我早已经了解追逐爱情的规则

G     Am    G         Em

那是你我都已熟悉的旋律

虽然不能爱你却又不知该如何

C         Am

在你遗忘的时候

相信总会有一天

  Bm      Em

我依然还记得

你一定会离去

  Am            D

明天你是否依然爱我

明天你是否依然爱我



C      Bm      Bm

 所有的故事只能有一首主题歌

C                  D

 我知道你最后的选择




上一篇:其实你不懂我的心-童安格- TXT文本   下一篇:明天你是否依然爱我-童安格- IMG图片
[收藏] [推荐] [评论(0条)] [返回顶部] [打印本页] [关闭窗口]
用户名: 新注册) 密码: 匿名评论
评论内容:(不能超过250字,需审核后才会公布,请自觉遵守互联网相关政策法规。
§最新评论:
资源搜索

赞助链接
相关文章
·When I Look To The Sky-Train- TXT文本
·宫保鸡丁-陶吉吉- IMG图片
·流沙-陶吉吉- IMG图片
·把根留住-童安格- IMG图片
·花瓣雨-童安格- IMG图片
·三国恋[破孩版]-Tank- Guitar Pro
·明天你是否依然爱我-童安格- IMG图片
·明天你是否依然爱我-童安格- TXT文本
·其实你不懂我的心-童安格- TXT文本
·其实你不懂我的心-童安格- IMG图片
·星月-童安格- IMG图片
·耶利亚女郎-童安格- TXT文本
相关推荐
热点文章
·Young For You-the gala- Guitar Pro
·我们小时候-Tank- TXT文本
·yesterday-The Beatles- IMG图片
·流沙-陶吉吉- IMG图片
·非你莫属-Tank- TXT文本
·寂寞的季节-陶吉吉- IMG图片
·明天你是否依然爱我-童安格- IMG图片
·Animal Instinct-The Cranberries- Guitar Pro
·500 miles-The Brother Four- TXT文本
·爱,很简单-陶吉吉- TXT文本
·Mombasa-Tommy Emmanuel- Guitar Pro
·耶利亚女郎-童安格- TXT文本

中国吉他娃 版权所有 Copyright(C) 2005 - 2008 Www.Guitarwa.Com Email guitarwa@gmail.com