首页 | | 吉他入门 | 吉他下载 | 吉他教程 | 吉他唱片 | 吉他大师 | 吉他谱 | 吉他视频 | 吉他书讯 | 吉他博客 | 网站旧版 | 吉他论坛| 吉他商城 | 淘宝店
www.guitarwa.com-Love for girls,Look for girls...
网站地图 RSS订阅
高级搜索 收藏本站
热门搜索:
M 当前位置:主页>吉他谱>U>文章内容
Hold me-U2- TXT文本
来源:吉他谱 作者:admin 发布时间:2007-08-24 进入论坛
-------------------------------------------------------------------------------

歌曲名:Hold me

歌手/乐队:U2 

编配者(转载来源):巴蒂的右脚 (提供)

-------------------------------------------------------------------------------



x: mufled strings

/: slide



Parte 1:

e-----------------------2-2-------

B-----------------------2-2-------

G-x-x-8-8-x-6-6-x-3-x-x-3-3-------

D-x-x-x-x-x-x-x-x-x-x-x-4-4-------

A-x-x-6-6-x-4-4-x-1-x-x-4-4-------

E-----------------------2-2-------



Parte 2:



e-------------------------

B-------------------------

G-6/8-8-6-8-6-8-6-8--8----

D--x--x-x-x-x-x-x-x--x----

A-4/6-6-4-6-4-6-4-6--6----

E-------------------------



Parte 3:



e-----------------------------------

B-----------------------------------

G-8-8-8-8-8-8-8-8-4-4-4-4-4-4-4-4---

D-x-x-x-x-x-x-x-x-x-x-x-x-x-x-x-x---

A-6-6-6-6-6-6-6-6-2-2-2-2-2-2-2-2---

E-----------------------------------



Parte 4:



e---------------------------

B-4-3-1-1/3-4---------------

G--------------4-6-4-4-3----

D---------------------------

A---------------------------

E---------------------------



Parte 1 x4



Parte 2 x6



You don`t now how you took it

You just know what you got

Oh lordy you`ve been stealing

From the thieves and you got caught



Parte 3  x1



In the headlights

Of a stretch car

You`re 



Parte 2 x6



a star



Dressing like your sister

Living like a tart

They don`t know what you`re doing

Babe, it must be art



Parte 3 x1



You`re a headache

In a suitcase

You`re



Parte 2 x2



a star



Parte 4 x4



Oh no, don`t be shy

You don`t have to go blind

Hold me, thrill me, kiss me, kill me



Parte 2 x8



You don`t know how you got here

You just know you want out

Believing in yourself

Almost as much as you doubt



Parte 3 x1



You`re a big smash

You wear it like a rash



Parte 2 x2



Star



Parte 4 x4



Oh no, don`t be shy

It takes a crowd to cry

Hold me, thrill me, kiss me, kill me



Parte 2 x2



Parte 1 x4



Parte 2 x8



They want you to be Jesus

They`ll go down on one knee

But they`ll want their money back

If you`re alive at thirty-three



Parte 3 x1



And you`re turning tricks

With your crucifix

You`re 



Parte 2 x2



a star



(Oh child)



Parte 4 x4



Of course You`re not shy

You don`t have to deny love

Hold me, thrill me, kiss me, kill me



Parte 2 x4



Parte 1 x16



上一篇:I Still Haven't-U2- TXT文本   下一篇:Bullet The Blue Sky-U2- TXT文本
[收藏] [推荐] [评论(0条)] [返回顶部] [打印本页] [关闭窗口]
用户名: 新注册) 密码: 匿名评论
评论内容:(不能超过250字,需审核后才会公布,请自觉遵守互联网相关政策法规。
§最新评论:
资源搜索

赞助链接
相关文章
·walk on-U2- TXT文本
·Bullet The Blue Sky-U2- TXT文本
·Hold me-U2- TXT文本
·I Still Haven't-U2- TXT文本
·Kite(Live)-U2- TXT文本
·New Years Day-U2- TXT文本
·With Or Without You-U2- Guitar Pro
·One-U2- TXT文本
·With Or Without You-U2- TXT文本
相关推荐
热点文章
·With Or Without You-U2- Guitar Pro
·With Or Without You-U2- TXT文本
·One-U2- TXT文本
·walk on-U2- TXT文本
·Kite(Live)-U2- TXT文本
·Bullet The Blue Sky-U2- TXT文本
·I Still Haven't-U2- TXT文本
·Hold me-U2- TXT文本
·New Years Day-U2- TXT文本

中国吉他娃 版权所有 Copyright(C) 2005 - 2008 Www.Guitarwa.Com Email guitarwa@gmail.com