首页 | | 吉他入门 | 吉他下载 | 吉他教程 | 吉他唱片 | 吉他大师 | 吉他谱 | 吉他视频 | 吉他书讯 | 吉他博客 | 网站旧版 | 吉他论坛| 吉他商城 | 淘宝店
www.guitarwa.com-Love for girls,Look for girls...
网站地图 RSS订阅
高级搜索 收藏本站
热门搜索:
M 当前位置:主页>吉他谱>U>文章内容
walk on-U2- TXT文本
来源:吉他谱 作者:admin 发布时间:2007-09-12 进入论坛
-------------------------------------------------------------------------------

歌曲名:walk on

歌手/乐队:U2

编配者(转载来源):网络

曲调:1=D  4/4

Email:yue61wu@126.com

-------------------------------------------------------------------------------





Tab by Filippo Donati



Intro with Piano:



Dm            C                               G

And love       is not an easy thing         the only package that you can bring. 

Dm                                      C

Love       is not an easy thing    the only package you can bring is    

G

All that you can’t leave behind



After edge started with this (little distortion, and little little delay):



Riff 1:



         D                                           A

e----------------12----------------------------------12---------------

B---------------------------------------------------------------------

G--------14-------------14-(14)----------------14------------14-(14)--

D---12-------------------------------12-------------------------------



        G                                          Em

e----------------12----------------------------------12---------------

B---------------------------------------------------------------------

G--------14-------------14-(14)----------------14------------14-(14)--

D---12-------------------------------12-------------------------------



Before Bono started to sing the edge changed in this:



e----------------12----------------------------------12---------------

B---------------------------------------------------------------------

G--------14-------------14-(14)----------------13------------13-(13)--

D---12-------------------------------12-------------------------------







Verse 1:   (Just play the D-chord)



D               A                   G            Em

And if the darkness is to keep us apart

D               A                     G                        Em

And if the daylight feels like it’s a long way off

D         A                           G           Em            D

And if your glass heart should crack, before the second you turn back

      A           E

Oh no, be strong



Chorus:   (Riff 1)



Walk on

Walk on

What you got, they can’t steal it

No they can’t even feel it

Walk on

Walk on

Stay safe tonight



Verse 2:



You’re packing a suitcase for a place, none of us has been

A place that has to be believed, to be seen

You could have flown away

A singing bird, in an open cage

Who will only fly, only fly, for freedom



Chorus:



Walk on

Walk on

What you got

You can’t deny it

Can’t sell it or buy it

Walk on

Walk on

You stay safe tonight



And I know it aches

How your heart it breaks

You can only take so much



Solo:



s:slide

b:bending

r:relase

h:hammer on

p:pull off



e-------------------------------------------------------------------

B---7---s8--8---s10---10---s12---12---12---------15p14----12---14---

G-------------------------------------------------------------------

D-------------------------------------------------------------------



e-------------------------------------------------------------------

B---12h14p12---10----8h10p8---7---5---5---s7---7--------------------

G-------------------------------------------------------------------

D-------------------------------------------------------------------



e-------------------------------------------------------------------

B---7---s8--8---s10---10---s12---12---s15---14----10----7----s10----

G-------------------------------------------------------------------

D-------------------------------------------------------------------



e-------------------------------------------------------------------

B---12---b14r--12---10---10---10---b14r---12---14---14---14---b14r--

G-------------------------------------------------------------------

D-------------------------------------------------------------------



e------------------------------------------------------------------

B---12---10----7----5---7---5---3---5---s7---5---3-----3-----------

G------------------------------------------------------------------

D------------------------------------------------------------------





Verse 3:



Hard to know what it is

If you never had one

I can’t say where it is, but I know I`m going

That’s where the heart is

And I know it aches

And your heart it breaks

You can only take so much

Walk on



Now the edge play this riff:  (D, A, G, Em)



e------------------------------------

B---------5---5---s7-----------------       x2

G---2h4----------------7---7---7-----

D------------------------------------



e---------------------------------------------------------------------

B---------5---5---s7--------------------------------------------------       

G---2h4----------------7---7---7----7---7----6--6----4--4----2---2----

D---------------------------------------------------------------------



Edge follow this riff until the end of the (world) song.





Leave it behind.    You`ve got to leave it behind



All that you fashion, 

all that you make,

all that you build, 

all that you break

all that you measure,

all that you feel, 

all this you can leave behind

All that you reason

All that you care



























WALK ON

tabbed by Brandon Leniart (leniart@juno.com)



Another new song that hints at Bono’s mid-life crises and possible

marital problems, in D major.  



(piano intro)

     Dm    C      G

1---5-----3-----3-

2---6-----5-----3-

3---7-----5-----4-

4---5-----5-----5-

5---5-----3-----5-

6---------------3-



(acoustic verse chords)

D       A       G       E



(slightly distorted guitar with the same chords)

1-----------3---4--

2-----------3---5--

3---7---2---4---4--

4---7---2---5------

5---5---0---5------

6-----------3------



(lead with delay)

1----------------------12----------

2------------------------------10--

3------------11--------------------

4---12-----------------------------

5----------------------------------

6----------------------------------



(there is also an improvised riff in D, using the notes E, F#, A, B & D)



(solo with the chords Bm        G     Em           A)

1----------------------------------------------------------------------------

2---7/8--8/10--10/12----12---15--14--12--12/14-----12h14p12\10-----8h10p10\7-

3----------------------------------------------------------------------------

4----------------------------------------------------------------------------

5----------------------------------------------------------------------------

6----------------------------------------------------------------------------



1--------------------------------------------------------------------------

2-7--7--5--5\7-----5/7--7/8--8/10--10/12----15--14--10--7/10--10/12--12/14-

3--------------------------------------------------------------------------

4--------------------------------------------------------------------------

5--------------------------------------------------------------------------

6--------------------------------------------------------------------------



1------------------------------------------------------------------------

2---14b15r14--12--10--12-----14b15r14--12--14-----14b15r14--12--10--12---

3------------------------------------------------------------------------

4------------------------------------------------------------------------

5------------------------------------------------------------------------

6------------------------------------------------------------------------



1------------------------------

2------------------------------

3---7--5--5h7p5---3--5h7p5p3---

4------------------------------

5------------------------------

6------------------------------



(end riff with Em       G     D     A)

1---------------------------------------------------

2---------------------------------------------------

3---9--11--7--------------9--9--11--7--  ...   --6--

4-------------------7h9-----------------------------

5---------------------------------------------------

6---------------------------------------------------



==================================================================



Walk On - U2 - All That You Can’t Leave Behind



tabbed by, Nick Van Den Broeke #1 U2 Tabber



Intro:

D           C       

And love is not the easy thing

G

the only baggage that you can bring... (ohhh)

D

Love is not (ohhh) the easy thing

C

The only baggage you can bring

G               -D  A  G  Em (repeat)-

is all that you can’t leave behind



Verse 1:

D               A

And if the darkness 

            G          Em

is to keep us apart,

D              A

and if the daylight

              G                    Em

feels like it’s a long way off,

D        A                   G

and if your glass heart should crack,

                 Em            D

and for a second you turn back

     A           E

Oh no, be strong!



Chorus:



Oh!  Oh!

       D             A

Walk on!  Walk On!

                 G

What you got, they can’t steal it.

      Em

No, they can’t even feel it.

       D               A

Walk On!  Walk On!

G                 E

Stay safe tonight.



Verse 2:



You’re packing a suitcase for a place

none of us has been

a place that has to be believed, to be seen.

You could have flown away

a singing bird in an open cage,

who will only fly,

only fly, for freedom.



Chorus:



Bridge:

          D

And I know it aches

              A

how your heart, it breaks;

            E

you can only take so much.



Solo:

Walk..................         On..................!



e------------------------------------------------------------

A--7/8--8/10--10/12---12------15--14--12--14--12h14h12--10---

G------------------------------------------------------------

                                     Walk.......  On...!

e---------------------------------------------------------------

A--8h10p8--7---5--7/8--8/10--10/12---12--15-14------------------

G-------------------------------------------------14--11-11--14-



e--------------------------------------------------------------

A---14--14/15\14--12--10---14/15\14--12--14--14/15\14--12--10--

G--------------------------------------------------------------



e--------------------------------

A--7--5--5h7p5--3--5--7--5--3----

G--------------------------------

  D        A

Home..........

              G

hard to know what it is



if you never had one.

  D         A

Home..........

           G

I can’t say where it is, but I know I’m going

  D         A

Home..........

                             E

that’s where the heart is.



Bridge:



Outro:



Walk On!

                                                                   

Hooooo...........

e----------------------------------------------------------------------

A----------------------------------------------------------------------

G---9--9--11--7--7-7----7---9--9--11--7--7-7---7---9--9--11--7--7-7-7--

D-----------------------9-------------------------9--------------------



e----------------

A----------------

G--6-6--4-4--2-2-

D----------------          Repeat through-out ending.



Leave it behind; you got to leave it behind;

all that you fashion, all that you make,

all that you build, all that you break,

all that you measure, all that you feel

all this you can leave behind.

All that you reason, (it’s only time)

(all that I’m feeling on my mind)

all that you sense, all that you scheme,

all you dress-up, and all that you see,

all you create, all that you wreck, all that you hate... -fades-







我们欢迎您转载曲谱,但请保留我们的地址和作者名!
上一页12 下一页

上一篇:Bullet The Blue Sky-U2- TXT文本   下一篇:没有了
[收藏] [推荐] [评论(0条)] [返回顶部] [打印本页] [关闭窗口]
用户名: 新注册) 密码: 匿名评论
评论内容:(不能超过250字,需审核后才会公布,请自觉遵守互联网相关政策法规。
§最新评论:
资源搜索

赞助链接
相关文章
·walk on-U2- TXT文本
·Bullet The Blue Sky-U2- TXT文本
·Hold me-U2- TXT文本
·I Still Haven't-U2- TXT文本
·Kite(Live)-U2- TXT文本
·New Years Day-U2- TXT文本
·With Or Without You-U2- Guitar Pro
·One-U2- TXT文本
·With Or Without You-U2- TXT文本
相关推荐
热点文章
·With Or Without You-U2- Guitar Pro
·With Or Without You-U2- TXT文本
·One-U2- TXT文本
·walk on-U2- TXT文本
·Kite(Live)-U2- TXT文本
·Bullet The Blue Sky-U2- TXT文本
·I Still Haven't-U2- TXT文本
·Hold me-U2- TXT文本
·New Years Day-U2- TXT文本

中国吉他娃 版权所有 Copyright(C) 2005 - 2008 Www.Guitarwa.Com Email guitarwa@gmail.com